The Herd (Join It) - Hergest Ridge - Bass tabs (not completed)

Sorry that it's not full, I am out of time
This is only BETA, may contain some mistakes
I will continue in next few days

(/) Slide Up (\) Slide Down (h) Hammer On (p) Pull Off (b) Bend (r) Release (v) Vibrato

Bass tabs

Verse1:

G|------------------------------------------------------------
D|------------------------------------------------------------
A|--3-3-3-3-3-3-3-3---------------3-3-3-3-3-3-3-3-------3--3-3
E|------------------3-3-3-1--1-1------------------3-3-3-------

Verse2:

G|-----------------------------------------------------------------
D|-----------------------------------------------------------------
A|--3-3-3-3---------------------------3-3-3-3---------------3-3-3-3
E|----------5-5-5-5-3-3-3-3-1-1-1-1-----------5-NO.-3-3-3-3--------

G|-----------------------------------------------------------------------------------------------
D|-----------------------------------------------------------------------------------------------
A|--3-3-3-3---------------------------3-3-3-3---------------------5-5-5-5-5-5-5-5-7-7-7-7-7-7-7-7
E|----------5-5-5-5-3-3-3-3-1-1-1-1-----------5-5-5-5-3-3-3-3-3-3--------------------------------


Chorus:

G|------------------------------------------------------------
D|------------------------------------------------------------
A|--3--3--3--3----------------3--3--3--3--------3--3----------
E|--------------5--5--3--3----------------5--5----------------




http://www.guitartabcreator.com
Guitar Tab Creator is intended to store guitar tab created through the tool. It currently does not support in-line text editing. Any text you place in here will be lost. If you need to comment on your tab, please use the "Tab Notes" section located below.