Teenage Rebellion / Bas

(/) Slide Up  (\) Slide Down  (h) Hammer On  (p) Pull Off  (b) Bend (r) Release (v) Vibrato
E|-----------------------------------------------------------------------------------------------
B|-----------------------------------------------------------------------------------------------
G|-----------------------------------------------------------------------------------------------
D|-----------------5--7-----------------5--7--------------------5--7--------------------5--7-----
A|--------3--5--7--------5--------3--7--------5--------3--5--7--------5--------3--5--7--------5--
E|--0--3--------------------0--3-----------------0--3--------------------0--3--------------------



E|--------------------------
B|--------------------------
G|--------------------------
D|--------------------------
A|--------3--5--------3--5--
E|--0--3--------0--3--------



E|--------------------------------------------------
B|--------------------------------------------------
G|--------------------------------------------------
D|--------------------------------------------------
A|--3--3--3--3--5--5--5--5--3--3--3--3--5--5--5--5--
E|--------------------------------------------------



E|--------------------------------
B|--------------------------------
G|--------------------------------
D|--------------------------------
A|--7--------5--6--7--------------
E|-----8--9-----------9--3--5--3--
http://www.guitartabcreator.com
Guitar Tab Creator is intended to store guitar tab created through the tool. It currently does not support in-line text editing. Any text you place in here will be lost. If you need to comment on your tab, please use the "Tab Notes" section located below.