The lost and the wicked / Bas

(/) Slide Up  (\) Slide Down  (h) Hammer On  (p) Pull Off  (b) Bend (r) Release (v) Vibrato

E|-----------------------------------------------
B|-----------------------------------------------
G|-----------------------------------------------
D|-----------------------------------------------
A|-----------------------------------------------
E|--7--7--7--7--3--3--3--3--4--4--5--5--7--7--7--



E|--------------------------------------------------------------------------------------------------
B|--------------------------------------------------------------------------------------------------
G|--------------------------------------------------------------------------------------------------
D|--9--9--9--9--------------------------------------------------------------------------------------
A|--------------10--10--10--10--7--7--7--7----------------------------------------------------------
E|------------------------------------------6--6--6--6--3--3--3--3--3--3--5--5--5--5--5--5--6--6--6r
http://www.guitartabcreator.com
Guitar Tab Creator is intended to store guitar tab created through the tool. It currently does not support in-line text editing. Any text you place in here will be lost. If you need to comment on your tab, please use the "Tab Notes" section located below.