Time Is Distance

(/) Slide Up  (\) Slide Down  (h) Hammer On  (p) Pull Off  (b) Bend (r) Release (v) Vibrato


E|----------------------------------------------------------------------------------
B|--------3------3--------3------3--------5------5--------5------5--------7------7--
G|----------------------------------------------------------------------------------
D|-----4---------------4---------------5---------------5---------------7------------
A|--2---------------2---------------3---------------3---------------5---------------
E|----------------------------------------------------------------------------------



E|-----------------------------------------------------------------------------------
B|--------7------7--------8------8--------8----8--8--8--7--7--5----5------3------12--
G|-----------------------------------------------------------------------------------
D|-----7---------------9---------------9----------9--9--7--7--5----5------4------12--
A|--5---------------7---------------7-------------7--7--5--5--3----3------2----------
E|-----------------------------------------------------------------------------------
http://www.guitartabcreator.com
Guitar Tab Creator is intended to store guitar tab created through the tool. It currently does not support in-line text editing. Any text you place in here will be lost. If you need to comment on your tab, please use the "Tab Notes" section located below.