Black And Blues #1

(/) Slide Up  (\) Slide Down  (h) Hammer On  (p) Pull Off  (b) Bend (r) Release (v) Vibrato


E|--------------------------------------------------------------------------------
B|--------------------------------------------------------------------------------
G|--------------------------------------------------------------------------------
D|--------3--3-----3-----3--------3--3-----3-----3-----------3--3-----3-----3-----
A|-----3--------3-----3--------3--------3-----3-----3-----3--------3-----3-----3--
E|--1-----------------------1--------------------------1--------------------------



E|-----------------------------------------------------------------------------
B|-----------------------------------------------------------------------------
G|--------------------------------3--3-----3--------3-----3--------------------
D|--------3--3-----3-----3--------------------3-----------------6-----5-----4--
A|-----3--------3-----3-----1--4--------4--------4-----1-----------------------
E|--1--------------------------------------------------------4-----3-----2-----



E|--------------------------------------------------------------------------------
B|--------------------------------------------------------------------------------
G|--------------------------------------------------------7-----6-----5-----------
D|--------3--3-----3-----3-----------3--3-----3-----3-----------------------------
A|-----3--------3-----3-----3-----3--------3-----3-----5-----4-----3--------------
E|--1--------------------------1-----------------------------------------4--3--1--
http://www.guitartabcreator.com
Guitar Tab Creator is intended to store guitar tab created through the tool. It currently does not support in-line text editing. Any text you place in here will be lost. If you need to comment on your tab, please use the "Tab Notes" section located below.