Capable by KO

(/) Slide Up  (\) Slide Down  (h) Hammer On  (p) Pull Off  (b) Bend (r) Release (v) Vibrato

E|----------------------------------------------------------------------------
B|----------------------------------------------------------------------------
G|--------------------------------9--10--12-----------------------------------
D|---------------------5v------------------------------------------5v---------
A|--7--7v--5--5--0--5------7--7v-------------5--7--7v--5--5--0--5------7--7v--
E|----------------------------------------------------------------------------



E|--------------------------------------------------------------------------------
B|--------------------------------------------------------------------------------
G|--------------------------------------------------------------------------------
D|--9--7/5--7--5--4--5--4-------------9--10--12-------------9--10--12-------------
A|-------------------------5v--7--7v-------------5v--7--7v-------------5v--7--7v--
E|--------------------------------------------------------------------------------
http://www.guitartabcreator.com
Guitar Tab Creator is intended to store guitar tab created through the tool. It currently does not support in-line text editing. Any text you place in here will be lost. If you need to comment on your tab, please use the "Tab Notes" section located below.