Blues Licks

(/) Slide Up  (\) Slide Down  (h) Hammer On  (p) Pull Off  (b) Bend (r) Release (v) Vibrato


E|--------0--------0--------0-------------------0--
B|-----3--------2--------1----------------------0--
G|--4--------3--------2--------0h1--------------2--
D|----------------------------------2-----------1--
A|-------------------------------------0--1--2--2--
E|----------------------------------------------0--



E|--------0--------0--------0-------------------0--
B|-----3--------2--------1----------------------3--
G|--4--------3--------2--------0h1--------------1--
D|----------------------------------2-----------0--
A|-------------------------------------0--1--2--2--
E|----------------------------------------------0--



E|----------5------------
B|-------5-----8b10v-----
G|--7b9------------------
D|-----------------------
A|-----------------------
E|-----------------------



E|------------10---------
B|-----10b13------13r10--
G|--8--------------------
D|-----------------------
A|-----------------------
E|-----------------------



E|------------------------------
B|--------7--10--7--------------
G|-----7------------9h11p9--7v--
D|--9---------------------------
A|------------------------------
E|------------------------------



E|-----2--------------------------
B|-----3--3---------3--5h7p5--3v--
G|-----4--2h4p2-------------------
D|-----4---------4----------------
A|--2-----------------------------
E|--------------------------------
http://www.guitartabcreator.com
Guitar Tab Creator is intended to store guitar tab created through the tool. It currently does not support in-line text editing. Any text you place in here will be lost. If you need to comment on your tab, please use the "Tab Notes" section located below.