Harmonic Minor Solo

(/) Slide Up  (\) Slide Down  (h) Hammer On  (p) Pull Off  (b) Bend (r) Release (v) Vibrato
E|--11/12--12/15--12\11------------------------------------------------------------------------------------
B|-----------------------13--12----------------------------------------------------------------------------
G|-------------------------------14--12--------------------------------------------------------------------
D|---------------------------------------14--13--------------------------------------------------16p13h14--
A|-----------------------------------------------15--14--12--------------------------12--14--15------------
E|-----------------------------------------------------------15--14--12--12--14--15------------------------



E|-------------------------------------------------------------------------15--17b19--17--15-------------
B|-----------------------------------------------------------------15--17---------------------17--15-----
G|------------------------------------------------------12--14/16----------------------------------------
D|--17p13h14--16p13h14--17p13h14--16p13h14--13--14--16---------------------------------------------------
A|-------------------------------------------------------------------------------------------------------
E|-------------------------------------------------------------------------------------------------------



E|-------------------------------------------------------------------------------------------------------
B|-------------------------------------------------------------------------------------------------------
G|--16--14-----------------------------------------------------------------------------------------------
D|----------16--14--13--14--13---------------------------------------------------------------------------
A|------------------------------15--14--12--14--15--14--12-------------------------------------15p12h14--
E|----------------------------------------------------------15--14--12-----15p12h14--15p12h14------------



E|--------------------------------
B|--------------------------------
G|--------------------------------
D|------------16p13h14--16p13h14--
A|--15p12h14----------------------
E|--------------------------------
http://www.guitartabcreator.com
Guitar Tab Creator is intended to store guitar tab created through the tool. It currently does not support in-line text editing. Any text you place in here will be lost. If you need to comment on your tab, please use the "Tab Notes" section located below.