Blues/Metal Solo

(/) Slide Up  (\) Slide Down  (h) Hammer On  (p) Pull Off  (b) Bend (r) Release (v) Vibrato
E|-----------------------------------------------------------------------------
B|-----------------------------------------------------------------------------
G|--------------------9--7--5--7--5-----------------9--7--5--------------------
D|-----------5--7--9-----------------9--7--5--7--9-----------9--7--5-----------
A|--5--7--9-----------------------------------------------------------9--7-----
E|-----------------------------------------------------------------------------



E|-------------------------------------------------------------------------------------------------
B|-------------------------------------------------------------------------------------------------
G|--------------------------17--19--21--19--17--19--17---------------------------------------------
D|--------------17--19--21------------------------------19--17--15---------------------------------
A|--17--19--21------------------------------------------------------19--17--15--14--15--12--10-----
E|-------------------------------------------------------------------------------------------------



E|-----------------------------------------------------------------------------------------------
B|-----------------------------------------------------------------------------------------------
G|--------------------------5--7--5--------------------------------------------------5--7--9-----
D|-----------------5--7--9-----------7--5-----------------------------------5--7--9--------------
A|--9--7--5--7--9--------------------------9--7--5--3--2--5--3--2--5--7--9-----------------------
E|-----------------------------------------------------------------------------------------------



E|-----------------------------------------
B|-----------------------------------------
G|--7--5-----------------------------------
D|--------9--7--5--------------------------
A|-----------------9--7--5--7--5-----------
E|--------------------------------7--5--0--



E|--------------------------------------------------15--12------17--12------15--12------17--12------
B|--15--12------17--12------15--12------17--12--------------14----------14----------14----------14--
G|----------14----------14----------14----------14--------------------------------------------------
D|--------------------------------------------------------------------------------------------------
A|--------------------------------------------------------------------------------------------------
E|--------------------------------------------------------------------------------------------------



E|------------------14--17--14--13--12-----20--21--20--18--20--21--21--20--18--17-----
B|--------------15--------------------------------------------------------------------
G|----------14------------------------------------------------------------------------
D|------15----------------------------------------------------------------------------
A|--17--------------------------------------------------------------------------------
E|------------------------------------------------------------------------------------



E|--14-----------------
B|------15-------------
G|----------14---------
D|--------------15-----
A|------------------17\
E|---------------------
http://www.guitartabcreator.com
Guitar Tab Creator is intended to store guitar tab created through the tool. It currently does not support in-line text editing. Any text you place in here will be lost. If you need to comment on your tab, please use the "Tab Notes" section located below.