SONG 1

(/) Slide Up  (\) Slide Down  (h) Hammer On  (p) Pull Off  (b) Bend (r) Release (v) Vibrato

E|----------------------------------------------------------------------------------------
B|----------------------------------------------------------------------------------------
G|----------------------------------------------------------------------------------------
D|----------------------------------------------------------------------------------------
A|----------------------------------------------------------------------------------------
E|-0-0-0-0-0-0-0-0-0-0-0-0-7-8-0-0-0-0-0-0-0-0-0-0-0-0-7-8-0-0-0-0-0-0-0-0-0-0-0-0-7-10---



E|-----------------------------
B|-----------------------------
G|-----------------------------
D|-----------------------------
A|-----------------------------
E|-0-0-0-0-0-0-0-0-0-0-0-0-7-8-



E|-------------------------------------------------------------------------------------------------
B|-------------------------------------------------------------------------------------------------
G|-------------------------------------------------------------------------------------------------
D|--------------------7-----------------------------------------------7----------------------------
A|-----7-10-8-7-----5---8-7-----7-10-8-7-----3-5-------7-10-8-7-----5---8-7-----7-10-8-7-----3-5---
E|-0-0----------0-0---------0-0----------0-0-----5-0-0----------0-0---------0-0----------0-0-----5-



E|-------------------------------------------------------------------------------------------------
B|-------------------------------------------------------------------------------------------------
G|-------------------------------------------------------------------------------------------------
D|--------------------7-----------------------------------------------7----------------------------
A|-----7-10-8-7-----5---8-7-----7-10-8-7-----3-5-------7-10-8-7-----5---8-7-----7-10-8-7-----3-5---
E|-0-0----------0-0---------0-0----------0-0-----5-0-0----------0-0---------0-0----------0-0-----5-



E|-----------------------------------------------------------------------
B|-----------------------------------------------------------------------
G|-----------------------------------------------------------------------
D|-----------------------------------------------------------------------
A|-------10---12---13-----12---13---15-----13---12---10-----15---13---12-
E|-0-0-0----0----0----0-0----0----0----0-0----0----0----0-0----0----0----



E|--------------------------------------------------------------------------------------------------
B|--------------------------------------------------------------------------------------------------
G|--------------------------------------------------------------------------------------------------
D|--------------------------------------------------------------------------------------------------
A|--------10-----12-----13--------12-----13-----15--------13-----12-----10--------15-----13-----12--
E|--0--0------0------0------0--0------0------0------0--0------0------0------0--0------0------0------
http://www.guitartabcreator.com
Guitar Tab Creator is intended to store guitar tab created through the tool. It currently does not support in-line text editing. Any text you place in here will be lost. If you need to comment on your tab, please use the "Tab Notes" section located below.