Untitled

(/) Slide Up  (\) Slide Down  (h) Hammer On  (p) Pull Off  (b) Bend (r) Release (v) Vibrato

Intro/Verses
G|--------------------------------------------------------------------------------------
D|--------------------------------------------------------------------------------------
A|--------------------------------------0--0--0--0--0--0--0--0--0--0--0--0--0-----------
E|--0--0--0--0--0--0--0--0--0--0--0--0-----------------------------------------0--0--0--


Pre-Chorus
G|-------------------------------------------------------------------------------------------------------
D|-------------------------------------------------------------------------------------------------------
A|-------------------------------------------------------------------------------------------------------
E|9-9-9-9-9-9-9-9-7-7-7-7-7-7-7-7-5-5-5-4-5-5-5-4-5-5-5-4-5-5-5-4-9-9-9-9-9-9-9-9-7-7-7-7-7-7-7-7-5-5-5-


Chorus


G|--------------------------------------------------------------------------------------------------
D|--------------------------------------------------------------------------------------------------
A|--------------------------------------------------------------------------------------------------
E|--0--0--0--0--0--0--0--0--7--7--7--7--7--7--7--7--9--9--9--9--9--9--9--9--5--5--5--5--5--5--5--5--
http://www.guitartabcreator.com
Guitar Tab Creator is intended to store guitar tab created through the tool. It currently does not support in-line text editing. Any text you place in here will be lost. If you need to comment on your tab, please use the "Tab Notes" section located below.