Jake's Not The Only One

(/) Slide Up  (\) Slide Down  (h) Hammer On  (p) Pull Off  (b) Bend (r) Release (v) Vibrato

Intro/Verses
E|--------------------------------------------
B|--------------------------------------------
G|--------------------------------------------
D|--------------------------------------------
A|--------------------------------------------
E|--0--0--3--0--5--0--0--8--8--8--7--7--7--7--


Chorus
G|--------------------------------------------------------------------------
D|--------------------------------------------------------------------------
A|--3--3--3--3--3--5--5--5--5--5--5--5--------------------------------------
E|--------------------------------------0--0------0--0------0--0------0--0--

G|--------------------------------------------------------------------
D|--------------------------------------------------------------------
A|--3--3--3--3--3--5--5--5--5--5--5--5--------------------------------
E|--------------------------------------0--0----0--0----0--0----0--0--

G|--------------------------------------------------------------------------
D|--------------------------------------------------------------------------
A|--3--3--3--3--3--5--5--5--5--5--5--5--7--7--7--7--7--8--8--8--8--8--8--8--
E|--------------------------------------------------------------------------

G|----------------------------------------------------------------------
D|----------------------------------------------------------------------
A|--3--3--3--3--3--5--5--5--5--5--5--5----------------------------------
E|--------------------------------------0--0----0--0----0--0----0--0----

Bridge

G|-------
D|-------
A|--1/7--
E|-------
http://www.guitartabcreator.com
Guitar Tab Creator is intended to store guitar tab created through the tool. It currently does not support in-line text editing. Any text you place in here will be lost. If you need to comment on your tab, please use the "Tab Notes" section located below.