Inspiring Lyrics

(/) Slide Up  (\) Slide Down  (h) Hammer On  (p) Pull Off  (b) Bend (r) Release (v) Vibrato

Verses/Chorus
G|--------------------------------------------------------------------------------------------------
D|--------------------------------------------------------------------------------------------------
A|--2--2--2--2--2--2--2--2--------------------------------------------------------------------------
E|--------------------------2--2--2--2--2--2--2--2--4--4--4--4--4--4--4--4--0--0--0--0--0--0--0--0--

Bridge
G|--------------------------------------------------------------------------------------------------
D|--------------------------------------------------------------------------------------------------
A|--------------------------------------------------2--2--2--2--2--2--2--2--------------------------
E|--4--4--4--4--4--4--4--4--0--0--0--0--0--0--0--0--------------------------2--2--2--2--3--3--3-----
http://www.guitartabcreator.com
Guitar Tab Creator is intended to store guitar tab created through the tool. It currently does not support in-line text editing. Any text you place in here will be lost. If you need to comment on your tab, please use the "Tab Notes" section located below.