Hate The Ones

(/) Slide Up  (\) Slide Down  (h) Hammer On  (p) Pull Off  (b) Bend (r) Release (v) Vibrato

Intro/Verses

G|------------------------------------------------------------------------
D|------------------------------------------------------------------------
A|------------------------------------------------3--3--3--3--4--4--4--4--
E|--2--2--0--2------2--2--0--2------2--2--0--2----------------------------


Chorus

G|--------------------------------------------------------------------------------
D|--------7--------7-----7--------7--------7-----7--------------4--------------3--
A|--5--5-----5--5-----5-----------------------------------------------------------
E|--------------------------5--5-----5--5-----5-----2--2--0--2-----2--2--0--2-----

G|------------------------------------------------------------------------
D|--------7--------7-----7--------7--------7------------------------------
A|--5--5-----5--5-----5-----------------------9--9--7--9------9--9--7--9--
E|--------------------------5--5-----5--5---------------------------------

Outro

G|----------------------------------
D|----------------------------------
A|----------------------------------
E|--2--2--0--2------2--2--0--2------
http://www.guitartabcreator.com
Guitar Tab Creator is intended to store guitar tab created through the tool. It currently does not support in-line text editing. Any text you place in here will be lost. If you need to comment on your tab, please use the "Tab Notes" section located below.