American dream

(/) Slide Up  (\) Slide Down  (h) Hammer On  (p) Pull Off  (b) Bend (r) Release (v) Vibrato


E|-------------------------------------------------
B|-------------------------------------------------
G|-------------------------------------------------
D|-------------------------5-4-4-4-4-4-5-----------
A|---2-2-2-2-2-4-5-5-5-5-5---------------4-4-4-4-4-
E|-2-----------------------------------------------



E|-------------------------------------------------------------------
B|-------------------------------------------------------------------
G|-------------------------------------7-7-5-5---------4-4-2-2-2-----
D|-----1-1-2-2-4-4-----4-4-5-5-7-7-5-5---------7-7-2-2-----------4-4-
A|-2-2-------------5-5-----------------------------------------------
E|-------------------------------------------------------------------



E|---------------------------------
B|---------------------------------
G|---------------------------------
D|---------4-4---4-3-3---3-2-2-----
A|-2-2-5-5-----5-------4-------3-3-
E|---------------------------------



E|-----------------------------------------------------------------
B|-----------------------------------------------------------------
G|-----------------------------------------------------------------
D|---------4-4---4-3-3---3-2-2-------------------------------2-----
A|-2-2-5-5-----5-------4-------3-3-2-2-5-5---------2-2-2-2-5---5-5-
E|-----------------------------------------2-2-5-5-----------------



E|---------------------------------------------------------------------------------
B|---------------------------------------------------------------------------------
G|---------------------------------------------------------------------------------
D|-----------------------------------------------2-4-5-5-5-5-4-2---------4-2-2-2-2-
A|-2v-2v-2-2-2-2-2-2-2-2-2-2-2-2-2-2-2-2p2-2-2-2-----------------5-5-5-5-----------
E|---------------------------------------------------------------------------------



E|---------------------------------------------------
B|---------------------------------------------------
G|-----------------------------------2-2-2-2-4-2-----
D|---------2-4-5-5-5-5-4-2---------4-------------4-2-
A|-2-2-2-2-----------------5-5-5-5-------------------
E|---------------------------------------------------



E|---------------------------------------------------------------------
B|---------------------------------------------------------------------
G|---------------------------------------------------------------------
D|---------------------------------------------------------------------
A|-2-2-2-2-2-2-2-2---0-2-5-5-5-5-5-5-5-5---3-5-3-3-3-3-3-3-5-5-5-3-3-3-
E|-----------------2---------------------5-----------------------------



E|---------------------------------------------------------------------------------------
B|---------------------------------------------------------------------------------------
G|---------------------------------------------------------------------------------------
D|---------------------------------------------------------------------------------------
A|-2-2-2-2-2-2-2-2---0-2-5-5-5-5-5-5-5-5---3-5-7-7-7-7-7-7---5-7-3-3-3-3-3-3-5-5-5-3-3-3-
E|-----------------2---------------------5-----------------7-----------------------------



E|--------------------------------------
B|--------------------------------------
G|--------------------------------------
D|--------------------------------------
A|-10-10-10-10-10-10-8-8-8-10-10-10-8-2-
E|--------------------------------------
http://www.guitartabcreator.com
Guitar Tab Creator is intended to store guitar tab created through the tool. It currently does not support in-line text editing. Any text you place in here will be lost. If you need to comment on your tab, please use the "Tab Notes" section located below.