TheDeadstation-ICannotExplainMyselfAnymore(Intro)

THE DEADSTATION.
"I Cannot Explain Myself Anymore." (Acoustic Guitar Intro)
Episode 01: Like Peering Into The Deepest Ocean Abyss.


The first acoustic guitar on the left side:

E|---------0-----------0--------0-----------0--------
B|------0-----0-----0--------0-----0-----0-----0----- Repeat x2
G|--11-----------9--------8-----------9-----------9--
D|---------------------------------------------------
A|---------------------------------------------------
E|---------------------------------------------------

E|---------------------------------------------0-----
B|---------0-----------0--------0-----------0-----0-- Repeat x2
G|------8-----8-----8--------8-----8-----8-----------
D|--11-----------9--------11----------9--------------
A|---------------------------------------------------
E|---------------------------------------------------


When the second acoustic guitar enters on the right side:

E|---------0--------0-----------0--------0-----------
B|------0-----0--9-----0-----0-----0--9-----0-----0-- Repeat x2
G|--11-------------------11--------------------11----
D|---------------------------------------------------
A|---------------------------------------------------
E|---------------------------------------------------

E|---------0-----------0--------0-----------0-----0--
B|------0-----0-----0--------0-----0-----0-----0----- Repeat x1
G|---9-----------8--------9-----------8--------------
D|---------------------------------------------------
A|---------------------------------------------------
E|---------------------------------------------------

These whole sections then repeat until 1:17


==============================================
Tab created by THE DEADSTATION. (2012)

www.thedeadstation.com
www.facebook.com/thedeadstation
http://thedeadstation.bandcamp.com (Download "Episode 01" here for free!)
Guitar Tab Creator is intended to store guitar tab created through the tool. It currently does not support in-line text editing. Any text you place in here will be lost. If you need to comment on your tab, please use the "Tab Notes" section located below.