MY DESTRUCTIVE RIFF OF DESTRUCTION

(/) Slide Up  (\) Slide Down  (h) Hammer On  (p) Pull Off  (b) Bend (r) Release (v) Vibrato

E|--0--0--0--------------------------------------0--0--0--0-----------------------------------
B|-----------2--3--2--5--2--------------3--2--5--------------2--3--2--5--2--------------3--2--
G|--------------------------3--2--5--2--------------------------------------3--2--5--2--------
D|--------------------------------------------------------------------------------------------
A|--------------------------------------------------------------------------------------------
E|--------------------------------------------------------------------------------------------



E|-----------------------------------------------------------------
B|--2--4--5--5--4--2--------5--4--2--4--5--5--4--0-----------5--4--
G|--------------------4--5--------------------------5--4--0--------
D|-----------------------------------------------------------------
A|-----------------------------------------------------------------
E|-----------------------------------------------------------------
http://www.guitartabcreator.com
Guitar Tab Creator is intended to store guitar tab created through the tool. It currently does not support in-line text editing. Any text you place in here will be lost. If you need to comment on your tab, please use the "Tab Notes" section located below.