Scotish Pentatonic Scale(every other note)

(/) Slide Up  (\) Slide Down  (h) Hammer On  (p) Pull Off  (b) Bend (r) Release (v) Vibrato


E|------------------------------------------------------------------
B|------------------------------------------------------------------
G|------------------------------------------------------------------
D|------------------------------------------------------------------
A|----------------------------------1--3--6--8--10--13--15--18--20--
E|--1--3--6--8--10--13--15--18--20----------------------------------



E|------------------------------------------------------------------
B|------------------------------------------------------------------
G|----------------------------------1--3--6--8--10--13--15--18--20--
D|--1--3--6--8--10--13--15--18--20----------------------------------
A|------------------------------------------------------------------
E|------------------------------------------------------------------



E|----------------------------------1--3--6--8--10--13--15--18--20--
B|--1--3--6--8--10--13--15--18--20----------------------------------
G|------------------------------------------------------------------
D|------------------------------------------------------------------
A|------------------------------------------------------------------
E|------------------------------------------------------------------
http://www.guitartabcreator.com
Guitar Tab Creator is intended to store guitar tab created through the tool. It currently does not support in-line text editing. Any text you place in here will be lost. If you need to comment on your tab, please use the "Tab Notes" section located below.