Major pentatonic scale

(/) Slide Up  (\) Slide Down  (h) Hammer On  (p) Pull Off  (b) Bend (r) Release (v) Vibrato


E|----------------------------------------------------------------------------------------------
B|----------------------------------------------------------------------------------------------
G|----------------------------------------------------------------------------------------------
D|----------------------------------------------------------------------------------------------
A|------------------------------------------------0--2--4--5--7--9--11--12--14--16--17--19--21--
E|--0--2--4--5--7--9--11--12--14--16--17--19--21------------------------------------------------



E|----------------------------------------------------------------------------------------------
B|----------------------------------------------------------------------------------------------
G|------------------------------------------------0--2--4--5--7--9--11--12--14--16--17--19--21--
D|--0--2--4--5--7--9--11--12--14--16--17--19--21------------------------------------------------
A|----------------------------------------------------------------------------------------------
E|----------------------------------------------------------------------------------------------



E|------------------------------------------------0--2--4--5--7--9--11--12--14--16--17--19--21--
B|--0--2--4--5--7--9--11--12--14--16--17--19--21------------------------------------------------
G|----------------------------------------------------------------------------------------------
D|----------------------------------------------------------------------------------------------
A|----------------------------------------------------------------------------------------------
E|----------------------------------------------------------------------------------------------
http://www.guitartabcreator.com
Guitar Tab Creator is intended to store guitar tab created through the tool. It currently does not support in-line text editing. Any text you place in here will be lost. If you need to comment on your tab, please use the "Tab Notes" section located below.