Tetris Rythm

(/) Slide Up  (\) Slide Down  (h) Hammer On  (p) Pull Off  (b) Bend (r) Release (v) Vibrato


E|-------------------------------------------------------------
B|-------------------------------------------------------------
G|-------------------------------------------------------------
D|-------------------7---7---7---7---6---6-----------7---7---7-
A|---7---7---7---7---------------------------7---7-------------
E|-0---0---0---0---5---5---5---5---4---4---0---0---5---5---5---



E|-------------------------------------------------
B|-------------------------------------------------
G|-4-5-7-------------5-5---------------------------
D|-------------7-----------5-5---------6-----------
A|-------5-5-5---8-3-----3-------9-9-------7---7---
E|-----------------------------7-----7---5---5---5-



E|---------------------------------------------------------
B|---------------------------------------------------------
G|---9---9---9---9---9---9---9---9---9---9---9---9---9---9-
D|-7---7---7---7---6---6---6---6---7---7---7---7---6---6---
A|---------------------------------------------------------
E|---------------------------------------------------------



E|-
B|-
G|-
D|-
A|-
E|-
http://www.guitartabcreator.com
Guitar Tab Creator is intended to store guitar tab created through the tool. It currently does not support in-line text editing. Any text you place in here will be lost. If you need to comment on your tab, please use the "Tab Notes" section located below.