Tetris Lead

(/) Slide Up  (\) Slide Down  (h) Hammer On  (p) Pull Off  (b) Bend (r) Release (v) Vibrato


E|------------------------------------------------------------------
B|--5--------3h5p3-----------------5--3-----------3--5--------------
G|-----4--5---------5--4--2--2--5--------5--4--5--------5--2--2-----
D|------------------------------------------------------------------
A|------------------------------------------------------------------
E|------------------------------------------------------------------



E|--------5--3--------------------------------------------
B|--3--6--------6--5-----5--3--------------3--5-----------
G|--------------------5--------5--4--4--5--------5--2--2--
D|--------------------------------------------------------
A|--------------------------------------------------------
E|--------------------------------------------------------



E|--------------------------------------------------
B|--------------------------------------------------
G|--------------------------------------------------
D|-----------------------------------------2--7--6--
A|--7-----5-----3--------2--7-----5-----3-----------
E|-----8-----7-----5--4--------8-----7--------------
http://www.guitartabcreator.com
Guitar Tab Creator is intended to store guitar tab created through the tool. It currently does not support in-line text editing. Any text you place in here will be lost. If you need to comment on your tab, please use the "Tab Notes" section located below.