Tetris Harmony

(/) Slide Up  (\) Slide Down  (h) Hammer On  (p) Pull Off  (b) Bend (r) Release (v) Vibrato


E|-----------------------------------------------------------------
B|-----------------------------------------------------------------
G|--5--------4-----------------5--4-----------------4--5-----------
D|-----6--7-----7--6--------7--------7--6-----6--7--------7--------
A|--------------------7--7-----------------7-----------------7--7--
E|-----------------------------------------------------------------



E|----------------------------------------------------------------------------
B|----------------------------------------------------------------------------
G|-----2--5--5--4--2----------------------------------------------------------
D|--3-----------------5-----5h7p5--------6-----6--7--9-----10-----7-----------
A|-----------------------7---------8--7-----7-----------7------7-----7--7--7--
E|----------------------------------------------------------------------------



E|--------------------------------------------------
B|--------------------------------------------------
G|--------------------------------------------------
D|--------------------------------------------------
A|--3-----2-----------------3-----2--------3--7--5--
E|-----5-----4--5--0--0--4-----5-----4--5-----------
http://www.guitartabcreator.com
Guitar Tab Creator is intended to store guitar tab created through the tool. It currently does not support in-line text editing. Any text you place in here will be lost. If you need to comment on your tab, please use the "Tab Notes" section located below.