HummingBird

(/) Slide Up  (\) Slide Down  (h) Hammer On  (p) Pull Off  (b) Bend (r) Release (v) Vibrato
E|--------------5-----0-----------------5-----0-----------------5-----0-----------------5-----0--
B|--------3--------3-----3--------3--------3-----3--------3--------3-----3--------3--------3-----
G|-----2-----2-----------------2-----2-----------------2-----2-----------------2-----2-----------
D|--0-----------------------0-----------------------0-----------------------0--------------------
A|-----------------------------------------------------------------------------------------------
E|-----------------------------------------------------------------------------------------------



E|-----------------5-----0-----------------5-----0-----------------5-----0-----------------5-----
B|--3--------3--------3-----3--------3--------3-----3--------3--------3-----3--------3--------3--
G|--------0-----0-----------------0-----0-----------------2-----2-----------------2-----2--------
D|-----2-----------------------4-----------------------0-----------------------0-----------------
A|-----------------------------------------------------------------------------------------------
E|-----------------------------------------------------------------------------------------------



E|--0-----------------5-----0-----------------5-----0-----------------5-----0--------------------
B|-----3--------3--------3-----3--------3--------3-----3--------3--------3-----3--------3--------
G|-----------2-----2-----------------2-----2-----------------0-----0-----------------0-----0-----
D|--------0-----------------------0-----------------------2-----------------------4--------------
A|-----------------------------------------------------------------------------------------------
E|-----------------------------------------------------------------------------------------------



E|--5-----0-----------------5-----0-----3--3--3--3--3--3--3--3--0--0--0--0--0--0--0--0--3--3--3--
B|-----3-----3--------3--------3-----3--3--3--3--3--3--3--3--3--3--3--3--3--3--3--3--3--3--3--3--
G|-----------------2-----2--------------0--0--0--0--0--0--0--0--2--2--2--2--2--2--2--2--0--0--0--
D|--------------0-----------------------2--2--2--2--0--0--0--0--0--0--0--0--0--0--0--0--2--2--2--
A|--------------------------------------3--3--3--3--2--2--2--2--------------------------3--3--3--
E|--------------------------------------------------3--3--3--3-----------------------------------



E|--3--3--3--3--3--0--0--0--0--0--0--0--0--3--3--3--3--3--3--3--3--0--0--0--0--0--0--0--0--3--3--
B|--3--3--3--3--3--3--3--3--3--3--3--3--3--3--3--3--3--3--3--3--3--3--3--3--3--3--3--3--3--3--3--
G|--0--0--0--0--0--2--2--2--2--2--2--2--2--0--0--0--0--0--0--0--0--2--2--2--2--2--2--2--2--0--0--
D|--2--0--0--0--0--0--0--0--0--0--0--0--0--2--2--2--2--0--0--0--0--0--0--0--0--0--0--0--0--2--2--
A|--3--2--2--2--2--------------------------3--3--3--3--2--2--2--2-----------------------x--3--3--
E|-----3--3--3--3--------------------------------------3--3--3--3--------------------------------



E|--3--3--3--3--3--3--5--5--5--5--5-----
B|--3--3--3--3--3--3--3--3--3--3--3-----
G|--0--0--0--0--0--0--2--2--2--2--2-----
D|--2--2--0--0--0--0--0--0--0--0--0-----
A|--3--3--2--2--2--2--------------------
E|--------3--3--3--3--------------------



E|-----2/4--4/7--7v----------7\4--4--7p4p0----------0--0h2--------0--0--------------12\
B|--5----------------------------------------------------------------------------------
G|-------------------------------------------------------------------------------------
D|-------------------------------------------------------------------------------------
A|-------------------------------------------------------------------------------------
E|-------------------------------------------------------------------------------------



E|------------------------------------------------------------------------5p2--4/7------
B|--5--------5--3--2--2h3p2--------------2--3--2-----5----------------------------------
G|---------------------------4--4-----------------4-------------------------------------
D|--------------------------------------------------------------------------------------
A|--------------------------------------------------------------------------------------
E|--------------------------------------------------------------------------------------



E|--7p5p4p0--0--0h2------0--0--------------12--
B|---------------------------------------------
G|---------------------------------------------
D|---------------------------------------------
A|---------------------------------------------
E|---------------------------------------------
http://www.guitartabcreator.com
Guitar Tab Creator is intended to store guitar tab created through the tool. It currently does not support in-line text editing. Any text you place in here will be lost. If you need to comment on your tab, please use the "Tab Notes" section located below.