G# Minor?

(/) Slide Up  (\) Slide Down  (h) Hammer On  (p) Pull Off  (b) Bend (r) Release (v) Vibrato
E|----------------------------------------------------------------------9--11--9------------
B|---------------------------------------------------------------8--11------------11--8-----
G|------------------------------------8--7-----------------6--9--------------------------8--
D|-----------6--5---------5--6--8--9--------8--------5--8-----------------------------------
A|--------6--------6---------------------------7--6-----------------------------------------
E|--4--7--------------6---------------------------------------------------------------------



E|---------------------
B|---------------------
G|---------------------
D|--11--8--------------
A|---------10------11--
E|-------------11------
http://www.guitartabcreator.com
Guitar Tab Creator is intended to store guitar tab created through the tool. It currently does not support in-line text editing. Any text you place in here will be lost. If you need to comment on your tab, please use the "Tab Notes" section located below.