Intro and Build up

(/) Slide Up  (\) Slide Down  (h) Hammer On  (p) Pull Off  (b) Bend (r) Release (v) Vibrato
E|-----------------------------------------------------------------------------------
B|-----------------------------------------------------------------------------------
G|-----------------------------------------------------------------------------------
D|--------------7------1-1-1-1-1-----------------------------------------------------
A|-10-----8---------10-1-1-1-1-1-10-----8-----7--8-8-8-8-10-10-10-10-8-8-8-8-7-7-7-7-
E|----0-0---0-0---0----1-1-1-1-1----0-0---0-0----------------------------------------



E|--------------------------------------------------------
B|--------------------------------------------------------
G|--------------------------------------------------------
D|--------------7------1-1-1-1-1--------------------------
A|-10-----8---------10-1-1-1-1-1-10-----8-----7--8-10-8-7-
E|----0-0---0-0---0----1-1-1-1-1----0-0---0-0-------------



E|-----------------------------------------------------------------------------------
B|-----------------------------------------------------------------------------------
G|-----------------------------------------------------------------------------------
D|--------------7------1-1-1-1-1-----------------------------------------------------
A|-10-----8---------10-1-1-1-1-1-10-----8-----7--8-8-8-8-10-10-10-10-8-8-8-8-7-7-7-7-
E|----0-0---0-0---0----1-1-1-1-1----0-0---0-0----------------------------------------



E|-----------------------------------------------------------
B|-----------------------------------------------------------
G|-----------------------------------------------------------
D|--------------7------1-1-1-1-1-----------------8v--10v--0v-
A|-10-----8---------10-1-1-1-1-1-10-----8-----7--8---10---0--
E|----0-0---0-0---0----1-1-1-1-1----0-0---0-0----8---10---0--



E|-------------------------------------------------------------------
B|-------------------------------------------------------------------
G|-------------------------------------------------------------------
D|----0----0----0--0--0--0--0v----10--8--0--10--8--0--8h10----0v-----
A|----0----0----0--0--0--0--0-----10--8--0--10--8--0----------0------
E|----0----0----0--0--0--0--0-----10--8--0--10--8--0----------0------



E|----------------------------------
B|----------------------------------
G|--------------------------------7-
D|-0-0--0-0-0-0-0v--10-8-0-10-8-0---
A|-0-0--0-0-0-0-0---10-8-0-10-8-0---
E|-0-0--0-0-0-0-0---10-8-0-10-8-0---
http://www.guitartabcreator.com
Guitar Tab Creator is intended to store guitar tab created through the tool. It currently does not support in-line text editing. Any text you place in here will be lost. If you need to comment on your tab, please use the "Tab Notes" section located below.