Vampire

(/) Slide Up  (\) Slide Down  (h) Hammer On  (p) Pull Off  (b) Bend (r) Release (v) Vibrato
E|--13--13--12--10--------13--13--12--10--------------13------13------13------13------10------10--13-----
B|------------------13--------------------12--13--14------14------14------14------12------12------14-----
G|-------------------------------------------------------------------------------------------------------
D|-------------------------------------------------------------------------------------------------------
A|-------------------------------------------------------------------------------------------------------
E|-------------------------------------------------------------------------------------------------------



E|------13------13------13------13------10------10--13--------13------13------13------13------10--
B|--14------14------14------14------12------12------14----14------14------14------14------12------
G|------------------------------------------------------------------------------------------------
D|------------------------------------------------------------------------------------------------
A|------------------------------------------------------------------------------------------------
E|------------------------------------------------------------------------------------------------



E|------10--13--------13------13------13------13------10------10--13--------13------13------13------
B|--12------14----14------14------14------14------12------12------14----14------14------14------14--
G|--------------------------------------------------------------------------------------------------
D|--------------------------------------------------------------------------------------------------
A|--------------------------------------------------------------------------------------------------
E|--------------------------------------------------------------------------------------------------



E|--13------10------10--13--------13------13------13------13------10------10----13------13------13--
B|------12------12------14----14------14------14------14------12------12--------14--14------14------
G|--------------------------------------------------------------------------------------------------
D|--------------------------------------------------------------------------------------------------
A|--------------------------------------------------------------------------------------------------
E|--------------------------------------------------------------------------------------------------



E|------13------13------10------10--13--------13------13------13------13------10------10----
B|--14------14------12------12------14----14------14------14------14------12------12--------
G|------------------------------------------------------------------------------------------
D|------------------------------------------------------------------------------------------
A|------------------------------------------------------------------------------------------
E|------------------------------------------------------------------------------------------
http://www.guitartabcreator.com
Guitar Tab Creator is intended to store guitar tab created through the tool. It currently does not support in-line text editing. Any text you place in here will be lost. If you need to comment on your tab, please use the "Tab Notes" section located below.