Mysong

(/) Slide Up  (\) Slide Down  (h) Hammer On  (p) Pull Off  (b) Bend (r) Release (v) Vibrato
E|--0--5--6--5--0--5--0--5--6--5--0--5--
B|-----------------------------------7--
G|-----------------------------------7--
D|--------------------------------------
A|--------------------------------------
E|--------------------------------------



E|--0--5--6--5--0--5--0--5--0--5--6--5--8--5--5----
B|-----------------------------------------7--7----
G|-----------------------------------------7--7----
D|-------------------------------------------------
A|-------------------------------------------------
E|-------------------------------------------------



E|--5--5--5--5--5--5--5--5--5--5--5--5--
B|--7--7--7--7--7--7--7--7--7--7--7--7--
G|--7--7--7--7--7--7--7--7--7--7--7--7--
D|--------------------------------------
A|--------------------------------------
E|--------------------------------------



E|--5--5--x--5--5--x--5--x--6--6--x--6--6--x--6--x--4--4--4--4--4--
B|--7--7--x--7--7--x--7--x--8--8--x--8--8--x--8--x--6--6--6--6--6--
G|--7--7--x--7--7--x--7--x--8--8--x--8--8--x--8--x--6--6--6--6--6--
D|-----------------------------------------------------------------
A|-----------------------------------------------------------------
E|-----------------------------------------------------------------
http://www.guitartabcreator.com
Guitar Tab Creator is intended to store guitar tab created through the tool. It currently does not support in-line text editing. Any text you place in here will be lost. If you need to comment on your tab, please use the "Tab Notes" section located below.