Reggae

(/) Slide Up  (\) Slide Down  (h) Hammer On  (p) Pull Off  (b) Bend (r) Release (v) Vibrato


E|-----------------------------------------------------------------------------
B|--------------------------------------6--5--8--------------------------------
G|--------------------------------------7--5--9--------------------------------
D|--------5h7p5--7/9v----9--7--5--9b11--7--5--9--------------------------------
A|--5--7--------------------------------5--5--7------------5--7--5v--7---------
E|-----------------------------------------------5v--7v-----------------5v-----



E|----------------------------------
B|----------------------------------
G|----------------------------------
D|----------------5v----------------
A|----------5--7------5h7p5---------
E|--5v--7v-------------------7--5v--
http://www.guitartabcreator.com
Guitar Tab Creator is intended to store guitar tab created through the tool. It currently does not support in-line text editing. Any text you place in here will be lost. If you need to comment on your tab, please use the "Tab Notes" section located below.