Tip To The Hilt by All Eyes To The Front (lead guitar)

(/) Slide Up  (\) Slide Down  (h) Hammer On  (p) Pull Off  (b) Bend (r) Release (v) Vibrato

Stave 1:

E|----------------------------------------------------------
B|----------------------------------------------------------
G|----------------------------------------------------------
D|----------------------------------------------------------
A|-------7-------7-------7-9-10-------5-------5-------5-7-8-
E|-0-0-0---0-0-0---0-0-0--------0-0-0---0-0-0---0-0-0-------

Stave 2:

E|----------------------------------------------------------
B|----------------------------------------------------------
G|----------------------------------------------------------
D|----------------------------------------------------------
A|-------7-------7-------7-10-9-------5-------5-------5-8-7-
E|-0-0-0---0-0-0---0-0-0--------0-0-0---0-0-0---0-0-0-------

Stave 3:

E|-------12-17-------------------------13-13-------
B|----13-------15-------------------14-------14----
G|-12-------------14-------------15-------------15-
D|-------------------15-------14-------------------
A|----------------------17-13----------------------
E|-------------------------------------------------

Stave 4:

E|-------------------------------------------------------------------
B|-------------------------------------------------------------------
G|-------------------------------------------------------------------
D|--------8-----9-8-------6-----7-6--------8-----9-8-------4-----5-4-
A|-7-9-10---9-8-----5-7-8---7-6-----7-9-10---9-8-----3-5-6---5-4-----
E|-------------------------------------------------------------------

Stave 5:

E|-------12-17-------------------------13-13-------------13-18-------------------------14-14-------
B|----13-------15-------------------14-------14-------14-------16-------------------15-------15----
G|-12-------------14-------------15-------------15-13-------------15-------------16-------------16-
D|-------------------15-------14-------------------------------------16-------15-------------------
A|----------------------17-13-------------------------------------------18-14----------------------
E|-------------------------------------------------------------------------------------------------

Stave 6:

E|--------------------------
B|--------------------------
G|--------------------------
D|--------8-----9-8---------
A|-7-9-10---9-8-----3-3-2-2-
E|------------------1-1-0-0-

http://www.guitartabcreator.com
Guitar Tab Creator is intended to store guitar tab created through the tool. It currently does not support in-line text editing. Any text you place in here will be lost. If you need to comment on your tab, please use the "Tab Notes" section located below.