Life

(/) Slide Up  (\) Slide Down  (h) Hammer On  (p) Pull Off  (b) Bend (r) Release (v) Vibrato
Guitar 2

Verse
E|-----------------------------------
B|-----------------------------------
G|-----------------------------------
D|-----------------------------------
A|-----------------------------------
E|--10/12--10--12--12/14--12--10--7--



E|------------------------------------
B|------------------------------------
G|------------------------------------
D|------------------------------------
A|------------------------------------
E|--10/12--10--12--12/15--14--12--10--



E|------------------------------------
B|------------------------------------
G|------------------------------------
D|------------------------------------
A|------------------------------------
E|--10/12--10--12--12/17--15--14--12--


Pre-Chorus
E|------------------
B|------------------
G|--7--7--7--10-----
D|------------------
A|------------------
E|------------------


Chorus
E|--------------10------------------------------------------------
B|----------------------------------------------------------------
G|--12--10--12------12--10----------------------------------------
D|--------------------------12--10--8--10--10/12--10--8--10--8\5--
A|----------------------------------------------------------------
E|----------------------------------------------------------------



E|--------------10--------------------------------------------------------------------------
B|------------------------------------------------------------------------------------------
G|--12--10--12------12--10------------------10--12------------------------------------------
D|--------------------------12--10--12--10----------12--10--12--10--5--5--7--8--7--3--3--5--
A|------------------------------------------------------------------------------------------
E|------------------------------------------------------------------------------------------

After, it goes:
Verse
Pre-Chorus
Chorus
Verse/Outro
http://www.guitartabcreator.com
Guitar Tab Creator is intended to store guitar tab created through the tool. It currently does not support in-line text editing. Any text you place in here will be lost. If you need to comment on your tab, please use the "Tab Notes" section located below.