Time Travel Riffs

(/) Slide Up  (\) Slide Down  (h) Hammer On  (p) Pull Off  (b) Bend (r) Release (v) Vibrato


E|------14----------------------------------------------------10--13--16--13----------
B|--11------11--16--11-----------11--9----------------11--12------------------15------
G|----------------------11/8\11---------8---------10------------------------------13--
D|-----------------------------------------9--12--------------------------------------
A|------------------------------------------------------------------------------------
E|------------------------------------------------------------------------------------



E|------14----------------------------------------------------10--13--16--13--------------13--
B|--11------11--16--11-----------11--9----------------11--12------------------15------15------
G|----------------------11/8\11---------8---------10------------------------------16----------
D|-----------------------------------------9--12----------------------------------------------
A|--------------------------------------------------------------------------------------------
E|--------------------------------------------------------------------------------------------



E|--14--11--------------11--14--11------18--14----------13-------------16/13----10------
B|----------12------12--------------12----------16--15------15/11-------------------11--
G|--------------11----------------------------------------------------------------------
D|--------------------------------------------------------------------------------------
A|--------------------------------------------------------------------------------------
E|--------------------------------------------------------------------------------------



E|--------11----14----16--14--13--------------------14----13----18--16--14--------------
B|--12----------------------------16--15--12--11----------------------------18--16--15--
G|--------------------------------------------------------------------------------------
D|--------------------------------------------------------------------------------------
A|--------------------------------------------------------------------------------------
E|--------------------------------------------------------------------------------------
http://www.guitartabcreator.com
Guitar Tab Creator is intended to store guitar tab created through the tool. It currently does not support in-line text editing. Any text you place in here will be lost. If you need to comment on your tab, please use the "Tab Notes" section located below.