Rock Together (kinda)

(/) Slide Up  (\) Slide Down  (h) Hammer On  (p) Pull Off  (b) Bend (r) Release (v) Vibrato

Dropped D

E|------------------------------
B|------------------------------
G|------------------------------
D|-6-6-6-6-7-7-7-7---0-3-0-3--0-
A|-6-6-6-6-7-7-7-7---0-3-0-3--0-
D|-6-6-6-6-7-7-7-7---0-3-0-3--0-



E|-----------------
B|-----------------
G|-----------------
D|----0------------
A|------3p0--------
D|-0--------5p0-3--
http://www.guitartabcreator.com
Guitar Tab Creator is intended to store guitar tab created through the tool. It currently does not support in-line text editing. Any text you place in here will be lost. If you need to comment on your tab, please use the "Tab Notes" section located below.