Police Leads

(/) Slide Up  (\) Slide Down  (h) Hammer On  (p) Pull Off  (b) Bend (r) Release (v) Vibrato
E|---------------------------------------------------------------------------------14-11-------------
B|------------------------------------12-15-12-16-12-------------------12----12----------12----------
G|---9---9-12-11-8---8---8-11-12-9-12----------------11----11-------12----12----12----------11-------
D|-----9-----------9---9--------------------------------13----13-14----------------------------13----
A|-7----------------------------------------------------------------------------------------------14-
E|---------------------------------------------------------------------------------------------------



E|------------------15--19--15--19--15------------------------------15--19--15--19--15------------------
B|--------------17----------------------17----------------------17----------------------17--------------
G|----------16------------------------------16--------------16------------------------------16----------
D|------17--------------------------------------17------17--------------------------------------17------
A|--19----------------------------------------------19----------------------------------------------19--
E|------------------------------------------------------------------------------------------------------



E|-------------------------
B|-------------------------
G|----------------8--9--8--
D|--8--7--8----8-----------
A|-------------------------
E|-------------------------



E|--------------------------------------------------------------------------
B|--------------------------------------------------------------------------
G|--9--8--5--4--5--4--5--4--------------------------------------------------
D|--------------------------7--5--4-----------7--9--7-----9--7--5-----------
A|-----------------------------------7--5--9-----------9-----------9--7--5--
E|--------------------------------------------------------------------------



E|--------------------------------
B|--------------------------------
G|--------------------12--13--14--
D|--12--11--12----12--------------
A|--------------------------------
E|--------------------------------



E|-------------------------------------------------------------------------------------------
B|-------------------------------------------------------------------------------------------
G|--12--11--9------9------9------------------------------------------------------------------
D|-------------13-----13-----13--10--9-----------------10--13--10------12--10--9-------------
A|--------------------------------------12--10--9--12--------------12-------------12--10--9--
E|-------------------------------------------------------------------------------------------



E|-----------------------------------------------------------------12--15\14--11------------------
B|-------------------------------------------------------------13-----------------12--------------
G|-------------11--12--11--14--12--11----------------------12-------------------------11----------
D|------9--12--------------------------14--12----------14---------------------------------12------
A|--10-----------------------------------------14--15-----------------------------------------14--
E|------------------------------------------------------------------------------------------------



E|--17--14------------------
B|----------16--------------
G|--------------17--14------
D|----------------------16--
A|--------------------------
E|--------------------------



E|--8p7p5--------------
B|---------7-----------
G|------------8--5-----
D|------------------7--
A|---------------------
E|---------------------



E|--12p10p8-----------------
B|-----------10-------------
G|---------------11--8------
D|----------------------10--
A|--------------------------
E|--------------------------



E|-------------------
B|-------------------
G|-------------------
D|-------------------
A|--10--9---------7--
E|---------10--0-----



E|---------------------
B|---------------------
G|---------------------
D|---------------------
A|--14--12---------10--
E|----------14--0------



E|---------------------
B|---------------------
G|--------9------------
D|-----9-----9---------
A|--7-----------10--7--
E|---------------------



E|-------------------
B|-------------------
G|-------------------
D|----------9--------
A|--10--12-----------
E|-------------------
http://www.guitartabcreator.com
Guitar Tab Creator is intended to store guitar tab created through the tool. It currently does not support in-line text editing. Any text you place in here will be lost. If you need to comment on your tab, please use the "Tab Notes" section located below.