Long Riff

(/) Slide Up  (\) Slide Down  (h) Hammer On  (p) Pull Off  (b) Bend (r) Release (v) Vibrato

Stave 1:

E|--12--0--11--0--8\7--------------------------------------------------------------------
B|---------------------8/10--8\7---------------------------------------------------------
G|--------------------------------9--8--9----------------8-----9-------------------------
D|-----------------------------------------10--8--9------------------10------------------
A|---------------------------------------------------10-----9-----6---------9--10--------
E|-----------------------------------------------------------------------7---------8--7--

Stave 2:

E|--------------------------------------------------------
B|----------------------------------------------------12--
G|------------------------------------------------11------
D|--------------4--7--------------10----------13----------
A|--------5--3--------6--------9----------12--------------
E|--2--3-----------------5--8---------11------------------

http://www.guitartabcreator.com
Guitar Tab Creator is intended to store guitar tab created through the tool. It currently does not support in-line text editing. Any text you place in here will be lost. If you need to comment on your tab, please use the "Tab Notes" section located below.