The Light Is Taking Me To Pieces Bass Tab

(/) Slide Up  (\) Slide Down  (h) Hammer On  (p) Pull Off  (b) Bend (r) Release (v) Vibrato


E|---------------------------------------------------------------------------------------------------
B|---------------------------------------------------------------------------------------------------
G|--------------14--17--14---------------------------------------------------------------------------
D|----------14--------------14-----------------------------------------------------6--7-----7--7-----
A|--12--15----------------------15--12------12------12----------8------8--------7--------7--------7--
E|--------------------------------------12------12------12--10-----10-----5--8-----------------------



E|-----------------------------------------------------------------
B|-----------------------------------------------------------------
G|-----------------------------------------------------------------
D|---------------------------------------------10------10--10------
A|--12------12----------8------8--------5--10------10----------10--
E|------12------12--10-----10-----3--7-----------------------------
http://www.guitartabcreator.com
Guitar Tab Creator is intended to store guitar tab created through the tool. It currently does not support in-line text editing. Any text you place in here will be lost. If you need to comment on your tab, please use the "Tab Notes" section located below.