The Human I Am

(/) Slide Up  (\) Slide Down  (h) Hammer On  (p) Pull Off  (b) Bend (r) Release (v) Vibrato
E|--------5--7--2--4--5-----0--0--0--7--7--
B|--5--7--5--7--2--5--6--6--0--0--0--7--9--
G|--6--6--6--7--2--6--5--6--6--6--6--8--9--
D|--6--7--7--9--4--6--7--7--7--7--9--9--9--
A|-----5--7--9--4--4--5--8--9--8--7--9--7--
E|--5-----5--7--2--------------------7-----



E|-----------------------------------------------------------9----------9--------------
B|-----------------9---------10p9--------------------10---------10---------10------10--
G|----------9---------9------------9------9------11------11---------11---------11------
D|------11-----11--------11-----------11-----12----------------------------------------
A|--12---------------------------------------------------------------------------------
E|-------------------------------------------------------------------------------------



E|--------------------------------------------------------------------------------
B|--------------------------------------------------------------------------------
G|--6b7r6-----9b11r9------11b13r11------13b14r13------16------13--14--13--14--16--
D|---------7----------11------------12------------14------------------------------
A|--------------------------------------------------------------------------------
E|--------------------------------------------------------------------------------



E|--------------------------
B|--------------------------
G|--14--------13------9-----
D|--------------------------
A|--------------------------
E|--------------------------



E|------------------------------------------------------------------------------
B|------------------------------------------------------------------------------
G|--6b7r6-----9b11r9------13b14r13------16--13------18------13--14--13--14--16--
D|---------7----------11------------14----------14------------------------------
A|------------------------------------------------------------------------------
E|------------------------------------------------------------------------------
http://www.guitartabcreator.com
Guitar Tab Creator is intended to store guitar tab created through the tool. It currently does not support in-line text editing. Any text you place in here will be lost. If you need to comment on your tab, please use the "Tab Notes" section located below.