Chronic Town riffs

(/) Slide Up  (\) Slide Down  (h) Hammer On  (p) Pull Off  (b) Bend (r) Release (v) Vibrato

E|-------------7-----7h11p7-------------------------7-----------------------
B|-------9-------------------9-----9----------9-----------------------------
G|--8h9-----9-----9-------------9-----9--8h9-----9-----9--9------8----------
D|----------------------------------------------------------------------10--
A|--------------------------------------------------------------------------
E|--------------------------------------------------------------------------



E|-----------------------------------------------------
B|-----------------------------------------------------
G|--13------------10--------------13------------17-----
D|-----------------------------------------------------
A|--11------------8---------------11------------15-----
E|-----------------------------------------------------



E|--------------------
B|--------------------
G|--------------------
D|-----6--4--------4--
A|--4-----------------
E|-----------5--4-----



E|-------------------------
B|-------------------------
G|--------------9----------
D|------11--10-----11--10--
A|--11---------------------
E|-------------------------



E|--------------------------------------
B|--------------------------------------
G|--------------------------------------
D|--7--7--7--7--9--7--6--6--6--6--6--6--
A|--------------------------------------
E|--5--5--5--5--7--5--4--4--4--4--4--4--



E|--------------------------------------
B|--------------------------------------
G|--------------------5--6--8--8--6--5--
D|--7--7--7--7--9--7--------------------
A|--------------------3--4--6--6--4--3--
E|--5--5--5--5--7--5--------------------



E|-----------------------------------------
B|-----------------------------10--12--13--
G|--6--9--13--11--9--8--9--11--------------
D|-----------------------------7---9---10--
A|--4--7--11--9---7--6--7--9---------------
E|-----------------------------------------
http://www.guitartabcreator.com
Guitar Tab Creator is intended to store guitar tab created through the tool. It currently does not support in-line text editing. Any text you place in here will be lost. If you need to comment on your tab, please use the "Tab Notes" section located below.