Chronic Town Intro Lead Guitar

(/) Slide Up  (\) Slide Down  (h) Hammer On  (p) Pull Off  (b) Bend (r) Release (v) Vibrato


E|-4---7/9-------------7---
B|---5-----5-------5-------
G|-----------6-4-6---6---6- x 4
D|-------------------------
A|-------------------------
E|-------------------------



E|-7p4---------------------7-12-7----------------------
B|-----5-----------------9--------9--------------------
G|-------4-------4-6-8-9------------9-8---------8------
D|---------6---6------------------------11-9-11---9----
A|-----------7--------------------------------------11-
E|-----------------------------------------------------



E|---------------8-8-----8-8-11-11-8-8---------------------
B|-----------9-9-----9-9---------------9-9-----------------
G|-------8-8-------------------------------8-8-------------
D|-10-10---------------------------------------10-10-------
A|---------------------------------------------------11-11-
E|---------------------------------------------------------



E|---------4-----------4-----------4-----------4---
B|-----5-----------5-----------5-----------5-------
G|-6-----------6-----------6-----------6-----------
D|---6---6---6---6---6---6---6---6---6---6---6---6-
A|-------------------------------------------------
E|-------------------------------------------------



E|---------5-----------5-----------5---5-5-5-
B|-----5-----------5-----------5-------5-5-5-
G|-6-----------6-----------6-----------6-6-6-
D|---7---7---7---7---7---7---7---7---7-7-7-7-
A|-------------------------------------------
E|-------------------------------------------



E|-4---7/9-------------7---4---7/9-------------7---
B|---5-----5-------5---------5-----5-------5-------
G|-----------6-4-6---6---6-----------6-4-6---6---6-
D|-------------------------------------------------
A|-------------------------------------------------
E|-------------------------------------------------



E|-4---8/11-8-------8-11-8---8---14-11-------------------------
B|---4--------9---9--------9---9-------13----------13----------
G|--------------8-------------------------14-11-14----14-11----
D|----------------------------------------------------------13-
A|-------------------------------------------------------------
E|-------------------------------------------------------------
http://www.guitartabcreator.com
Guitar Tab Creator is intended to store guitar tab created through the tool. It currently does not support in-line text editing. Any text you place in here will be lost. If you need to comment on your tab, please use the "Tab Notes" section located below.