Cracker Ball Verse

(/) Slide Up  (\) Slide Down  (h) Hammer On  (p) Pull Off  (b) Bend (r) Release (v) Vibrato

Stave 1:

E|--------------------------------------------------------------------------
B|--------------------------------------------------------------------------
G|----------------------------------------------------------------5h6--5h6--
D|--------5\4p2--4--2--------2--2--------------5\4p2--4--2------------------
A|--0------------------3--4--------------0------------------3--4------------
E|-----2---------------------------3--4-----2-------------------------------

Stave 2:

E|-------------------------------------------------------------------------
B|-------------------------------------------------------------------------
G|-------------------------------------------------------------------------
D|--------5\4p2--4--2--------2--2----------5----4--------------------------
A|--0------------------3--4----------3--0------------5----3----0-----0-----
E|-----2----------------------------------------------------------2-----2--

http://www.guitartabcreator.com
Guitar Tab Creator is intended to store guitar tab created through the tool. It currently does not support in-line text editing. Any text you place in here will be lost. If you need to comment on your tab, please use the "Tab Notes" section located below.