Cracker Ball Chorus....

(/) Slide Up  (\) Slide Down  (h) Hammer On  (p) Pull Off  (b) Bend (r) Release (v) Vibrato

(W|WW) Whole (H|HH) Half (Q|QQ) Quarter (E|EE) 8th (S|SS) 16th (T|TT) 32nd (X|XX) 64th

Stave 1:
t:
E|-------------------------------------------------
B|-------------------------------------------------
G|-------------------------------------------------
D|------12-----------------------------------------
A|-------------------------------------------------
E|--10------0--2--0--3--0--5--0--8--0--9--0--------

Stave 2:
t:
E|--------------------------------------
B|--------------------------------------
G|--------------------------------------
D|------12--------------------------10--
A|--------------------------------------
E|--10------0--2--0--3--0--5--0--8------

Stave 3:
t: SS SS SS SS SS SS SS
E|----------------------------------------------------------------------------
B|----------------------------------------------------------------------------
G|----------------------------------------------------------------------------
D|------12--------------------------------------------------------------------
A|----------------------------------------------------------------------------
E|--10------0--2--0--3--0--5--0--8--0--10--0--12--12--12--12--12--12--12--12--

http://www.guitartabcreator.com
Guitar Tab Creator is intended to store guitar tab created through the tool. It currently does not support in-line text editing. Any text you place in here will be lost. If you need to comment on your tab, please use the "Tab Notes" section located below.