Prolong this Agony

(/) Slide Up  (\) Slide Down  (h) Hammer On  (p) Pull Off  (b) Bend (r) Release (v) Vibrato
Verse
|---------------------------------------------------------------------------------------
|---------------------------------------------------------------------------------------
F|---------------------------------------------------------------------------------------
C|---------------------------------------------------------------------------------------
G|---------------------------------------------------------------------------------------
D|--0----0--0--3--3--3--0--0--3--3--3--3--2--3----3--3--3--3--3--0--3--3--6--6--6--6--5--



|-----------------------------------------------------------------------------------|-----|--
|-----------------------------------------------------------------------------------|-----|--
F|-----------------------------------------------------------------------------------|-----|--
C|--------------------------3--3--3--------------------------------------------------|-----|--
G|-----------------------------------6--6--6--6--6--6--6--5--5--5--5--5--5--5--5--5--|-----|--
D|--6--6--6--6--5--1--1--1-----------------------------------------------------------|--0--|--


bridge
|-----------------------------------------------------------|--
|-----------------------------------------------------------|--
F|-----------------------------------------------------------|--
C|-----------------------------------------------------------|--
G|-------------7----------------7-------------------------5--|--
D|--0-------------1--0-------------1/5----------0--8\1/5-----|--


Atmospheric clean solo
|--------------------------------------------------------------|--
|--------------------------------------------------------------|--
F|--------------------------------------------------------------|--
C|--------------------------------------------------------------|--
G|--------------------------------0--------------0--------------|--
D|--0--------------0--------------------------------------------|--


Uptempo riff
|------------------------------------------------------------------------------------------------
|------------------------------------------------------------------------------------------------
F|------------------------------------------------------------------------------------------------
C|------------------------------------------------------------------------------------------------
G|------------------------------------------------------------------------------------------------
D|--0--0----0--0----0--0----0--0----0--0----0--0----0--0----0--0----3--3----3--3----3--3----3--3--



|------------------------------------------------------------------------------------------------
|------------------------------------------------------------------------------------------------
F|------------------------------------------------------------------------------------------------
C|------------------------------------------------------------------------------------------------
G|------------------------------------------------------------------------------------------------
D|--3--3----3--3----3--3----3--3----6--6----6--6----6--6----6--6----7--7----7--7----7--7----7--7--

Uptempo tail and outro riff

|--------------------------------------------------|--
|--------------------------------------------------|--
F|--------------------------------------------------|--
C|--------------------------------------------------|--
G|--6--6--6--6--6--6--6--5--5--5--5--5--5--5--5--5--|--
D|--------------------------------------------------|--
http://www.guitartabcreator.com
Guitar Tab Creator is intended to store guitar tab created through the tool. It currently does not support in-line text editing. Any text you place in here will be lost. If you need to comment on your tab, please use the "Tab Notes" section located below.