Between apes and angels

(/) Slide Up  (\) Slide Down  (h) Hammer On  (p) Pull Off  (b) Bend (r) Release (v) Vibrato
Intro Verse
|----------|-----------------------------------------|-----------------------------------------
|----------|-----------------------------------------|-----------------------------------------
F|------16--|-----------------------------------------|-----------------------------------------
C|--14------|-----------------------------------------|-----------------------------------------
G|----------|-----7--5--7-----------------------------|-----7--5--7-----------------------------
D|----------|--0-----------5--7--8--8--8--8--7--7--7--|--0-----------5--8--7--3--3--3--2--2--2--


bridge
|--------------------------------------------|--
|--------------------------------------------|--
F|--------------------------------------------|--
C|--------------------------------------------|--
G|-----------------7--7--6--6--5--5--2-----1--|--
D|--0--0--0--0--0-----------------------0-----|--


middle riff a
|-----------------------------------------------------------------------------------------------
|-----------------------------------------------------------------------------------------------
F|-----------------------------------------------------------------------------------------------
C|-----------------------------------------------------------------------------------------------
G|-----------------------------------------------3--3--3--3--2--2--2--2--2--2--2--2--2--2--------
D|--0--0--0--0--0--0--0--0--0--0--0--0--0--0--0--------------------------------------------1--3--



|----------------------|--
|----------------------|--
F|----------------------|--
C|----------------------|--
G|-----------3/5-----6--|--
D|--3--3--3-------0-----|--


middle riff b
|-----------------------------------------------------------------------------------------------
|-----------------------------------------------------------------------------------------------
F|-----------------------------------------------------------------------------------------------
C|-----------------------------------------------------------------------------------------------
G|--------------------------------3--2--2--2--2--2--2--2--2--2--2--------------------------------
D|--0--0--0--0--0--0--0--0--0--0-----------------------------------3--3--3--3--3--3--3--3--3--3--



|-------------------------------
|-------------------------------
F|-------------------------------
C|-------------------------------
G|--3--2--2--2--2--2--3/5-----6--
D|-------------------------0-----
http://www.guitartabcreator.com

Form : intro verse x4 bridge

Form :

intro
verse x4
bridge x4
guitar break
middle riff a x4
middle riff b x2
verse x4
bridge x4
guitar outro

Guitar Tab Creator is intended to store guitar tab created through the tool. It currently does not support in-line text editing. Any text you place in here will be lost. If you need to comment on your tab, please use the "Tab Notes" section located below.