Guitar Solo

(/) Slide Up  (\) Slide Down  (h) Hammer On  (p) Pull Off  (b) Bend (r) Release (v) Vibrato

E|-----------------------5--7--8--7--5----------------------------------------------------------------
B|--3--1--------5--7--8-----------------8--7--5-------------------------------------------------------
G|--4--2--5--7-----------------------------------7b9--5--5--7--9--7--9--10--9--10--12--10--12--13-----
D|--5--3----------------------------------------------------------------------------------------------
A|--5--3----------------------------------------------------------------------------------------------
E|----------------------------------------------------------------------------------------------------



E|----------------------------------------------15--17--18--17--15--18--17--15---------------------
B|----------------------------------15--17--18----------------------------------18--17--15---------
G|--12--13--15--13--15--17--15--17----------------------------------------------------------17-----
D|-------------------------------------------------------------------------------------------------
A|-------------------------------------------------------------------------------------------------
E|-------------------------------------------------------------------------------------------------



E|------------------------------------
B|------------------------------3--1--
G|--15--------------------------4--2--
D|------18--17------------------5--3--
A|--------------18--17----------5--3--
E|----------------------17--15--------
http://www.guitartabcreator.com
Guitar Tab Creator is intended to store guitar tab created through the tool. It currently does not support in-line text editing. Any text you place in here will be lost. If you need to comment on your tab, please use the "Tab Notes" section located below.