Thank You Complete

(/) Slide Up  (\) Slide Down  (h) Hammer On  (p) Pull Off  (b) Bend (r) Release (v) Vibrato


E|-----------------------------------------------------------------
B|-----------------------------------------------------------------
G|-----2--0-----2--0-----2--0-----2--0--5--5--5--4--4--4--2--2--0--
D|-----------------------------------------------------------------
A|-----------------------------------------------------------------
E|--3--------2--------0--------2-----------------------------------



E|--------------------------------------------------------------
B|--------------------------------------------------------------
G|--------------------------------------------------------------
D|--------------------------------------------------------------
A|-----------------------------------------------3--3--3--3--3--
E|--3--3--3--3--3--2--2--2--2--2--0--0--0--0--0-----------------



E|-----------------
B|-----------------
G|-----------------
D|-----------------
A|-----------3--5--
E|--3--2--0--------



E|-------------------------------------------------------------------
B|-------------------------------------------------------------------
G|---2-0-----------2-0-----------2-0-----------2-0-5-5-5-4-4-4-4-2-0-
D|-------------------------------------------------------------------
A|---------2-3-2---------2-3-2---------2-3-2-------------------------
E|-3-----3-------2-----2-------0-----0-------2-----------------------
http://www.guitartabcreator.com
Guitar Tab Creator is intended to store guitar tab created through the tool. It currently does not support in-line text editing. Any text you place in here will be lost. If you need to comment on your tab, please use the "Tab Notes" section located below.