Liar Full Tab

(/) Slide Up  (\) Slide Down  (h) Hammer On  (p) Pull Off  (b) Bend (r) Release (v) Vibrato


E|--------------------------------------------------------------------------
B|--------------------------------------------------------------------------
G|--------------------------------------------------------------------------
D|--------------------------------------------------------------5--------5--
A|--------5--------5--------5--------5--------2--------2--3--3-----3--3-----
E|--3--3-----3--3-----2--2-----2--2-----0--0-----0--0-----------------------



E|--------------------------------
B|--------------------------------
G|--------------------------------
D|--------------------5--------5--
A|--5--5--5--2--2--3-----3--3-----
E|--3--3--2--0--0-----------------



E|-------------------------------------------------------------
B|-------------------------------------------------------------
G|-------------------------------------------------------------
D|-------------------------------------------------------------
A|--10--10--10--10---------------------------------------------
E|------------------10--10--10--10--7--7--7--7--8--8--8--7--8--



E|--------------------------------------------------------------------------------------
B|--------------------------------------------------------------------------------------
G|--------------------------------------------------------------------------------------
D|--------------------------------------------------------------------------------------
A|--------------------------------------------------------------------------------------
E|--5--5--5--5--5--5--5--5--8--8--8--8--8--8--2--2--2--2--2--2--2--3--3--3--3--3--3--3--
http://www.guitartabcreator.com
Guitar Tab Creator is intended to store guitar tab created through the tool. It currently does not support in-line text editing. Any text you place in here will be lost. If you need to comment on your tab, please use the "Tab Notes" section located below.