Exercitiu - mana stanga - III, VI, V, VI

(/) Slide Up  (\) Slide Down  (h) Hammer On  (p) Pull Off  (b) Bend (r) Release (v) Vibrato
E|--1--3--2--4--|--2--4--3--5--|--3--5--4--6--|--4--6--5--7--|--|--
B|--------------|--------------|--------------|--------------|--|--
G|--------------|--------------|--------------|--------------|--|--
D|--------------|--------------|--------------|--------------|--|--
A|--------------|--------------|--------------|--------------|--|--
E|--------------|--------------|--------------|--------------|--|--



E|--1--3--2--4--|--------------|--------------|--2--4--3--5--|--------------|--------------|--
B|--------------|--1--3--2--4--|--------------|--------------|--2--4--3--5--|--------------|--
G|--------------|--------------|--1--3--2--4--|--------------|--------------|--2--4--3--5--|--
D|--------------|--------------|--------------|--------------|--------------|--------------|--
A|--------------|--------------|--------------|--------------|--------------|--------------|--
E|--------------|--------------|--------------|--------------|--------------|--------------|--



E|--4--2--3--1--|--5--3--4--2--|--6--4--5--3--|--7--5--6--4--|--
B|--------------|--------------|--------------|--------------|--
G|--------------|--------------|--------------|--------------|--
D|--------------|--------------|--------------|--------------|--
A|--------------|--------------|--------------|--------------|--
E|--------------|--------------|--------------|--------------|--



E|--------------|--------------|--------------|--
B|--4--2--3--1--|--5--3--4--2--|--6--4--5--3--|--
G|--------------|--------------|--------------|--
D|--------------|--------------|--------------|--
A|--------------|--------------|--------------|--
E|--------------|--------------|--------------|--



E|--4--2--3--1--|--------------|--------------|--5--3--4--2--|--------------|--------------|--
B|--------------|--4--2--3--1--|--------------|--------------|--5--3--4--2--|--------------|--
G|--------------|--------------|--4--2--3--1--|--------------|--------------|--5--3--4--2--|--
D|--------------|--------------|--------------|--------------|--------------|--------------|--
A|--------------|--------------|--------------|--------------|--------------|--------------|--
E|--------------|--------------|--------------|--------------|--------------|--------------|--
http://www.guitartabcreator.com
Guitar Tab Creator is intended to store guitar tab created through the tool. It currently does not support in-line text editing. Any text you place in here will be lost. If you need to comment on your tab, please use the "Tab Notes" section located below.