Exercitiu de ciupire a corzilor II - Em


(4) (3) (2)

E|-----------7-----------7--|-----------5-----------5--|-----------3-----------3--|--
B|--------0-----------0-----|--------0-----------0-----|--------0-----------0-----|--
G|-----0-----------0--------|-----0-----------0--------|-----0-----------0--------|--
D|--------------------------|--------------------------|--------------------------|--
A|--------------------------|--------------------------|--------------------------|--
E|--0-----------0-----------|--0-----------0-----------|--0-----------0-----------|--


(1)

E|-----------2-----------2--|-----------0-----------0--|--0--
B|--------0-----------0-----|--------0-----------0-----|--0--
G|-----0-----------0--------|-----0-----------0--------|--0--
D|--------------------------|--------------------------|--2--
A|--------------------------|--------------------------|--2--
E|--0-----------0-----------|--0-----------0-----------|--0--

* cifrele din paranteza reprezinta digitatia mainii stangi
Guitar Tab Creator is intended to store guitar tab created through the tool. It currently does not support in-line text editing. Any text you place in here will be lost. If you need to comment on your tab, please use the "Tab Notes" section located below.