Exercitiu de ciupire a corzilor I - Em




E|-----------0-----------------0--------|-----------2-----------------2--------|-----
B|--------0-----0-----------0-----0-----|--------0-----0-----------0-----0-----|-----
G|-----0-----------0-----0-----------0--|-----0-----------0-----0-----------0--|-----
D|--------------------------------------|--------------------------------------|-----
A|--------------------------------------|--------------------------------------|-----
E|--0-----------------0-----------------|--0-----------------0-----------------|-----



E|-----------3-----------------3--------|-----------2-----------------2--------|--
B|--------0-----0-----------0-----0-----|--------0-----0-----------0-----0-----|--
G|-----0-----------0-----0-----------0--|-----0-----------0-----0-----------0--|--
D|--------------------------------------|--------------------------------------|--
A|--------------------------------------|--------------------------------------|--
E|--0-----------------0-----------------|--0-----------------0-----------------|--



E|-----------0-----------------0--------|--0--
B|--------0-----0-----------0-----0-----|--0--
G|-----0-----------0-----0-----------0--|--0--
D|--------------------------------------|--2--
A|--------------------------------------|--2--
E|--0-----------------0-----------------|--0--
Guitar Tab Creator is intended to store guitar tab created through the tool. It currently does not support in-line text editing. Any text you place in here will be lost. If you need to comment on your tab, please use the "Tab Notes" section located below.