Exercitii pentru mana dreapta cu pana


1. Se va canta fiecare coarda de 4 ori alternand jos-sus-jos-sus.

E|--0--0--0--0--|--------------|--------------|--------------|--------------|--------------
B|--------------|--0--0--0--0--|--------------|--------------|--------------|--------------
G|--------------|--------------|--0--0--0--0--|--------------|--------------|--------------
D|--------------|--------------|--------------|--0--0--0--0--|--------------|--------------
A|--------------|--------------|--------------|--------------|--0--0--0--0--|--------------
E|--------------|--------------|--------------|--------------|--------------|--0--0--0--0--

2. Se va canta fiecare coarda de 2 ori: jos-sus

E|--------------------------------0--0--|--0--0--------------------------------|--
B|--------------------------0--0--------|--------0--0--------------------------|--
G|--------------------0--0--------------|--------------0--0--------------------|--
D|--------------0--0--------------------|--------------------0--0--------------|--
A|--------0--0--------------------------|--------------------------0--0--------|--
E|--0--0--------------------------------|--------------------------------0--0--|--

3. Se va canta fiecare coarda o singura data

E|-----------------0-----------------0--|--0-----------------0-----------------|--
B|--------------0-----------------0-----|-----0-----------------0--------------|--
G|-----------0-----------------0--------|--------0-----------------0-----------|--
D|--------0-----------------0-----------|-----------0-----------------0--------|--
A|-----0-----------------0--------------|--------------0-----------------0-----|--
E|--0-----------------0-----------------|-----------------0-----------------0--|--
Guitar Tab Creator is intended to store guitar tab created through the tool. It currently does not support in-line text editing. Any text you place in here will be lost. If you need to comment on your tab, please use the "Tab Notes" section located below.