Slow Blues Lick "Way Up"

(/) Slide Up  (\) Slide Down  (h) Hammer On  (p) Pull Off  (b) Bend (r) Release (v) Vibrato


E|--------------------------------------------------------
B|--------------------------------------------------------
G|--------------------------------------------------------
D|-----------2-----------------------2--1-----------------
A|-----------------------------------------2--1--2--3-----
E|--0--0--3-----0--0--0--0--0--0--3--------------------0--



E|---------------------------------------------------------------------
B|-------------------------15------------------------------------------
G|------12--14--14b12----------14b14--12h14--12h14--12-----------------
D|--14-----------------14--------------------------------------12--14--
A|------------------------------------------------------14/14----------
E|---------------------------------------------------------------------
http://www.guitartabcreator.com
Guitar Tab Creator is intended to store guitar tab created through the tool. It currently does not support in-line text editing. Any text you place in here will be lost. If you need to comment on your tab, please use the "Tab Notes" section located below.